Como tocar será- Legião Urbana no violão? ∞ω∞

Convidado:

VÁ NO CIFRAS CLUB QUE LA TE AJUDA A TOCAR MUSICAS E TEM AS NOTAS DELA TBM

Convidado:

eu tambem vo no cifra club para tocar :)

Convidado:

a musica mais facil é ainda é cedo de legião urbana

Convidado:

Bom.Eu faço violao,e te aconselho a pedir o seu professor (se vc tiver) a te ensinar,ou se nao tiver,arrume um que seja bom,se vc arrumar nao vai tocar so Legiao Urbana,e sim qualquer musica,e nao queiser fazer,Pegue a Cifra na internet. :) 
Aqui o:
E------------------------------------------------------------------------------|
B-----12---8----10---------------------------------------0---0------1-----1----|
G---12----9---11-------9----9----9-----7/5------5-5-5------5----------0--------|
D-10-----7---9--------9-9----9----9-----------5-------------------2-----2----2-|
A--------------------7---7----7----7/5------3----------3------- 0--------------|
E------------------------------------------------------------------------------|
(4x) (4x) (4x)
E---------------------------------------------------2-------3-----|
B-3----1------------0-----3---1---------0-----0-------0-------0---|
G---0----0---0-----2--2----2---2-0----0---0-----0-------0-------0-|
D-----2----2------0----0----0---------------2---------------------|
A----------------2------------------------------------------------|
E----------------------------------0------------------------------|     Espero ter ajudadoooh

Convidado:

Comentário foi eliminado

Convidado:

vc pode modificar o tom

Convidado:

Comentário foi eliminado

Deixe uma resposta